ISO-10303-21;
HEADER;
FILE_DESCRIPTION(('STEP AP214'),'1');
FILE_NAME('C:/TPO v2/SharedFS/Outgoing/hpce35.stp','2015-08-13T11:21:42',('TraceParts'),('TraceParts S.A.'),'Spatial InterOp 3D',' ',' ');
FILE_SCHEMA(('automotive_design'));
ENDSEC;
DATA;
#1=PRODUCT_DEFINITION_CONTEXT('',#9,'design');
#2=APPLICATION_PROTOCOL_DEFINITION('INTERNATIONAL STANDARD','automotive_design',1994,#9);
#3=PRODUCT_CATEGORY_RELATIONSHIP('NONE','NONE',#10,#11);
#4=SHAPE_DEFINITION_REPRESENTATION(#12,#13);
#5= (GEOMETRIC_REPRESENTATION_CONTEXT(3)GLOBAL_UNCERTAINTY_ASSIGNED_CONTEXT((#16))GLOBAL_UNIT_ASSIGNED_CONTEXT((#18,#19,#20))REPRESENTATION_CONTEXT('NONE','WORKSPACE'));
#9=APPLICATION_CONTEXT(' ');
#10=PRODUCT_CATEGORY('part','NONE');
#11=PRODUCT_RELATED_PRODUCT_CATEGORY('detail',' ',(#22));
#12=PRODUCT_DEFINITION_SHAPE('NONE','NONE',#23);
#13=ADVANCED_BREP_SHAPE_REPRESENTATION('1',(#24,#25),#5);
#16=UNCERTAINTY_MEASURE_WITH_UNIT(LENGTH_MEASURE(1.0E-006),#18,'','');
#18= (CONVERSION_BASED_UNIT('MILLIMETRE',#28)LENGTH_UNIT()NAMED_UNIT(#31));
#19= (NAMED_UNIT(#33)PLANE_ANGLE_UNIT()SI_UNIT($,.RADIAN.));
#20= (NAMED_UNIT(#33)SOLID_ANGLE_UNIT()SI_UNIT($,.STERADIAN.));
#22=PRODUCT('1','1','PART-1-DESC',(#39));
#23=PRODUCT_DEFINITION('NONE','NONE',#40,#1);
#24=MANIFOLD_SOLID_BREP('1',#41);
#25=AXIS2_PLACEMENT_3D('',#42,#43,#44);
#28=LENGTH_MEASURE_WITH_UNIT(LENGTH_MEASURE(1.0),#45);
#31=DIMENSIONAL_EXPONENTS(1.0,0.0,0.0,0.0,0.0,0.0,0.0);
#33=DIMENSIONAL_EXPONENTS(0.0,0.0,0.0,0.0,0.0,0.0,0.0);
#39=PRODUCT_CONTEXT('',#9,'mechanical');
#40=PRODUCT_DEFINITION_FORMATION_WITH_SPECIFIED_SOURCE(' ','NONE',#22,.NOT_KNOWN.);
#41=CLOSED_SHELL('',(#46,#47,#48,#49,#50,#51,#52,#53,#54,#55,#56,#57,#58,#59,#60,#61,#62,#63,#64,#65,#66,#67,#68,#69,#70,#71));
#42=CARTESIAN_POINT('',(0.0,0.0,0.0));
#43=DIRECTION('',(0.0,0.0,1.0));
#44=DIRECTION('',(1.0,0.0,0.0));
#45= (NAMED_UNIT(#31)LENGTH_UNIT()SI_UNIT(.MILLI.,.METRE.));
#46=ADVANCED_FACE('',(#73),#74,.T.);
#47=ADVANCED_FACE('',(#75),#76,.T.);
#48=ADVANCED_FACE('',(#77),#78,.F.);
#49=ADVANCED_FACE('',(#79),#80,.F.);
#50=ADVANCED_FACE('',(#81),#82,.T.);
#51=ADVANCED_FACE('',(#83),#84,.T.);
#52=ADVANCED_FACE('',(#85),#86,.T.);
#53=ADVANCED_FACE('',(#87),#88,.F.);
#54=ADVANCED_FACE('',(#89),#90,.F.);
#55=ADVANCED_FACE('',(#91),#92,.F.);
#56=ADVANCED_FACE('',(#93),#94,.F.);
#57=ADVANCED_FACE('',(#95),#96,.F.);
#58=ADVANCED_FACE('',(#97),#98,.F.);
#59=ADVANCED_FACE('',(#99,#100),#101,.F.);
#60=ADVANCED_FACE('',(#102,#103),#104,.T.);
#61=ADVANCED_FACE('',(#105),#106,.T.);
#62=ADVANCED_FACE('',(#107),#108,.T.);
#63=ADVANCED_FACE('',(#109,#110),#111,.T.);
#64=ADVANCED_FACE('',(#112),#113,.T.);
#65=ADVANCED_FACE('',(#114),#115,.T.);
#66=ADVANCED_FACE('',(#116),#117,.F.);
#67=ADVANCED_FACE('',(#118),#119,.F.);
#68=ADVANCED_FACE('',(#120,#121),#122,.T.);
#69=ADVANCED_FACE('',(#123),#124,.T.);
#70=ADVANCED_FACE('',(#125),#126,.T.);
#71=ADVANCED_FACE('',(#127,#128),#129,.T.);
#73=FACE_OUTER_BOUND('',#130,.T.);
#74=CYLINDRICAL_SURFACE('',#131,8.0);
#75=FACE_OUTER_BOUND('',#132,.T.);
#76=CONICAL_SURFACE('',#133,7.5940625,0.785398163397435);
#77=FACE_OUTER_BOUND('',#134,.T.);
#78=CYLINDRICAL_SURFACE('',#135,3.9995);
#79=FACE_OUTER_BOUND('',#136,.T.);
#80=CONICAL_SURFACE('',#137,1.99975,1.0471975511966);
#81=FACE_OUTER_BOUND('',#138,.T.);
#82=CYLINDRICAL_SURFACE('',#139,17.5);
#83=FACE_OUTER_BOUND('',#140,.T.);
#84=CYLINDRICAL_SURFACE('',#141,11.9);
#85=FACE_OUTER_BOUND('',#142,.T.);
#86=CYLINDRICAL_SURFACE('',#143,10.0);
#87=FACE_OUTER_BOUND('',#144,.T.);
#88=PLANE('',#145);
#89=FACE_OUTER_BOUND('',#146,.T.);
#90=PLANE('',#147);
#91=FACE_OUTER_BOUND('',#148,.T.);
#92=PLANE('',#149);
#93=FACE_OUTER_BOUND('',#150,.T.);
#94=PLANE('',#151);
#95=FACE_OUTER_BOUND('',#152,.T.);
#96=PLANE('',#153);
#97=FACE_OUTER_BOUND('',#154,.T.);
#98=PLANE('',#155);
#99=FACE_BOUND('',#156,.T.);
#100=FACE_OUTER_BOUND('',#157,.T.);
#101=PLANE('',#158);
#102=FACE_OUTER_BOUND('',#159,.T.);
#103=FACE_BOUND('',#160,.T.);
#104=PLANE('',#161);
#105=FACE_OUTER_BOUND('',#162,.T.);
#106=CYLINDRICAL_SURFACE('',#163,10.0);
#107=FACE_OUTER_BOUND('',#164,.T.);
#108=CYLINDRICAL_SURFACE('',#165,11.9);
#109=FACE_OUTER_BOUND('',#166,.T.);
#110=FACE_BOUND('',#167,.T.);
#111=PLANE('',#168);
#112=FACE_OUTER_BOUND('',#169,.T.);
#113=CYLINDRICAL_SURFACE('',#170,17.5);
#114=FACE_OUTER_BOUND('',#171,.T.);
#115=PLANE('',#172);
#116=FACE_OUTER_BOUND('',#173,.T.);
#117=CONICAL_SURFACE('',#174,1.99975,1.0471975511966);
#118=FACE_OUTER_BOUND('',#175,.T.);
#119=CYLINDRICAL_SURFACE('',#176,3.9995);
#120=FACE_BOUND('',#177,.T.);
#121=FACE_OUTER_BOUND('',#178,.T.);
#122=PLANE('',#179);
#123=FACE_OUTER_BOUND('',#180,.T.);
#124=CONICAL_SURFACE('',#181,7.5940625,0.785398163397435);
#125=FACE_OUTER_BOUND('',#182,.T.);
#126=CYLINDRICAL_SURFACE('',#183,8.0);
#127=FACE_BOUND('',#184,.T.);
#128=FACE_OUTER_BOUND('',#185,.T.);
#129=PLANE('',#186);
#130=EDGE_LOOP('',(#187,#188,#189,#190));
#131=AXIS2_PLACEMENT_3D('',#191,#192,#193);
#132=EDGE_LOOP('',(#194,#195,#196,#197));
#133=AXIS2_PLACEMENT_3D('',#198,#199,#200);
#134=EDGE_LOOP('',(#201,#202,#203,#204));
#135=AXIS2_PLACEMENT_3D('',#205,#206,#207);
#136=EDGE_LOOP('',(#208,#209,#210));
#137=AXIS2_PLACEMENT_3D('',#211,#212,#213);
#138=EDGE_LOOP('',(#214,#215,#216,#217));
#139=AXIS2_PLACEMENT_3D('',#218,#219,#220);
#140=EDGE_LOOP('',(#221,#222,#223,#224));
#141=AXIS2_PLACEMENT_3D('',#225,#226,#227);
#142=EDGE_LOOP('',(#228,#229,#230,#231));
#143=AXIS2_PLACEMENT_3D('',#232,#233,#234);
#144=EDGE_LOOP('',(#235,#236,#237,#238));
#145=AXIS2_PLACEMENT_3D('',#239,#240,#241);
#146=EDGE_LOOP('',(#242,#243,#244,#245));
#147=AXIS2_PLACEMENT_3D('',#246,#247,#248);
#148=EDGE_LOOP('',(#249,#250,#251,#252));
#149=AXIS2_PLACEMENT_3D('',#253,#254,#255);
#150=EDGE_LOOP('',(#256,#257,#258,#259));
#151=AXIS2_PLACEMENT_3D('',#260,#261,#262);
#152=EDGE_LOOP('',(#263,#264,#265,#266));
#153=AXIS2_PLACEMENT_3D('',#267,#268,#269);
#154=EDGE_LOOP('',(#270,#271,#272,#273));
#155=AXIS2_PLACEMENT_3D('',#274,#275,#276);
#156=EDGE_LOOP('',(#277,#278));
#157=EDGE_LOOP('',(#279,#280,#281,#282,#283,#284));
#158=AXIS2_PLACEMENT_3D('',#285,#286,#287);
#159=EDGE_LOOP('',(#288,#289));
#160=EDGE_LOOP('',(#290,#291));
#161=AXIS2_PLACEMENT_3D('',#292,#293,#294);
#162=EDGE_LOOP('',(#295,#296,#297,#298));
#163=AXIS2_PLACEMENT_3D('',#299,#300,#301);
#164=EDGE_LOOP('',(#302,#303,#304,#305));
#165=AXIS2_PLACEMENT_3D('',#306,#307,#308);
#166=EDGE_LOOP('',(#309,#310));
#167=EDGE_LOOP('',(#311,#312));
#168=AXIS2_PLACEMENT_3D('',#313,#314,#315);
#169=EDGE_LOOP('',(#316,#317,#318,#319));
#170=AXIS2_PLACEMENT_3D('',#320,#321,#322);
#171=EDGE_LOOP('',(#323,#324));
#172=AXIS2_PLACEMENT_3D('',#325,#326,#327);
#173=EDGE_LOOP('',(#328,#329,#330));
#174=AXIS2_PLACEMENT_3D('',#331,#332,#333);
#175=EDGE_LOOP('',(#334,#335,#336,#337));
#176=AXIS2_PLACEMENT_3D('',#338,#339,#340);
#177=EDGE_LOOP('',(#341,#342,#343,#344,#345,#346));
#178=EDGE_LOOP('',(#347,#348));
#179=AXIS2_PLACEMENT_3D('',#349,#350,#351);
#180=EDGE_LOOP('',(#352,#353,#354,#355));
#181=AXIS2_PLACEMENT_3D('',#356,#357,#358);
#182=EDGE_LOOP('',(#359,#360,#361,#362));
#183=AXIS2_PLACEMENT_3D('',#363,#364,#365);
#184=EDGE_LOOP('',(#366,#367));
#185=EDGE_LOOP('',(#368,#369));
#186=AXIS2_PLACEMENT_3D('',#370,#371,#372);
#187=ORIENTED_EDGE('',*,*,#373,.F.);
#188=ORIENTED_EDGE('',*,*,#374,.T.);
#189=ORIENTED_EDGE('',*,*,#375,.F.);
#190=ORIENTED_EDGE('',*,*,#376,.T.);
#191=CARTESIAN_POINT('',(-37.8440625,0.0,0.0));
#192=DIRECTION('',(1.0,0.0,0.0));
#193=DIRECTION('',(0.0,1.0,0.0));
#194=ORIENTED_EDGE('',*,*,#377,.F.);
#195=ORIENTED_EDGE('',*,*,#378,.T.);
#196=ORIENTED_EDGE('',*,*,#379,.F.);
#197=ORIENTED_EDGE('',*,*,#374,.F.);
#198=CARTESIAN_POINT('',(-54.0940625,0.0,0.0));
#199=DIRECTION('',(1.0,-0.0,-0.0));
#200=DIRECTION('',(0.0,1.0,0.0));
#201=ORIENTED_EDGE('',*,*,#380,.F.);
#202=ORIENTED_EDGE('',*,*,#381,.T.);
#203=ORIENTED_EDGE('',*,*,#382,.F.);
#204=ORIENTED_EDGE('',*,*,#383,.T.);
#205=CARTESIAN_POINT('',(-51.154556200812,0.0,0.0));
#206=DIRECTION('',(1.0,0.0,0.0));
#207=DIRECTION('',(0.0,1.0,0.0));
#208=ORIENTED_EDGE('',*,*,#384,.F.);
#209=ORIENTED_EDGE('',*,*,#385,.F.);
#210=ORIENTED_EDGE('',*,*,#383,.F.);
#211=CARTESIAN_POINT('',(-46.654556200812,0.0,0.0));
#212=DIRECTION('',(-1.0,-0.0,-0.0));
#213=DIRECTION('',(0.0,1.0,0.0));
#214=ORIENTED_EDGE('',*,*,#386,.F.);
#215=ORIENTED_EDGE('',*,*,#387,.T.);
#216=ORIENTED_EDGE('',*,*,#388,.F.);
#217=ORIENTED_EDGE('',*,*,#389,.F.);
#218=CARTESIAN_POINT('',(-10.6,0.0,0.0));
#219=DIRECTION('',(1.0,0.0,0.0));
#220=DIRECTION('',(0.0,1.0,0.0));
#221=ORIENTED_EDGE('',*,*,#390,.F.);
#222=ORIENTED_EDGE('',*,*,#391,.T.);
#223=ORIENTED_EDGE('',*,*,#392,.F.);
#224=ORIENTED_EDGE('',*,*,#393,.F.);
#225=CARTESIAN_POINT('',(-21.6,0.0,0.0));
#226=DIRECTION('',(1.0,0.0,0.0));
#227=DIRECTION('',(0.0,1.0,0.0));
#228=ORIENTED_EDGE('',*,*,#394,.F.);
#229=ORIENTED_EDGE('',*,*,#395,.F.);
#230=ORIENTED_EDGE('',*,*,#396,.F.);
#231=ORIENTED_EDGE('',*,*,#397,.F.);
#232=CARTESIAN_POINT('',(-29.25,1.0,0.0));
#233=DIRECTION('',(1.0,0.0,0.0));
#234=DIRECTION('',(0.0,0.0,-1.0));
#235=ORIENTED_EDGE('',*,*,#398,.F.);
#236=ORIENTED_EDGE('',*,*,#399,.T.);
#237=ORIENTED_EDGE('',*,*,#400,.F.);
#238=ORIENTED_EDGE('',*,*,#401,.F.);
#239=CARTESIAN_POINT('',(-55.5,3.46410161513775,-2.0));
#240=DIRECTION('',(0.0,0.866025403784438,-0.5));
#241=DIRECTION('',(0.0,0.5,0.866025403784438));
#242=ORIENTED_EDGE('',*,*,#402,.F.);
#243=ORIENTED_EDGE('',*,*,#401,.T.);
#244=ORIENTED_EDGE('',*,*,#403,.F.);
#245=ORIENTED_EDGE('',*,*,#404,.F.);
#246=CARTESIAN_POINT('',(-55.5,3.46410161513776,2.0));
#247=DIRECTION('',(-0.0,0.866025403784439,0.5));
#248=DIRECTION('',(0.0,-0.5,0.866025403784439));
#249=ORIENTED_EDGE('',*,*,#405,.F.);
#250=ORIENTED_EDGE('',*,*,#404,.T.);
#251=ORIENTED_EDGE('',*,*,#406,.F.);
#252=ORIENTED_EDGE('',*,*,#407,.F.);
#253=CARTESIAN_POINT('',(-55.5,1.77635683940025E-015,4.0));
#254=DIRECTION('',(-0.0,1.92296268638356E-016,1.0));
#255=DIRECTION('',(0.0,-1.0,1.92296268638356E-016));
#256=ORIENTED_EDGE('',*,*,#408,.F.);
#257=ORIENTED_EDGE('',*,*,#407,.T.);
#258=ORIENTED_EDGE('',*,*,#409,.F.);
#259=ORIENTED_EDGE('',*,*,#410,.F.);
#260=CARTESIAN_POINT('',(-55.5,-3.46410161513775,2.0));
#261=DIRECTION('',(0.0,-0.866025403784439,0.5));
#262=DIRECTION('',(0.0,-0.5,-0.866025403784439));
#263=ORIENTED_EDGE('',*,*,#411,.F.);
#264=ORIENTED_EDGE('',*,*,#412,.T.);
#265=ORIENTED_EDGE('',*,*,#413,.F.);
#266=ORIENTED_EDGE('',*,*,#399,.F.);
#267=CARTESIAN_POINT('',(-55.5,-8.88178419700125E-016,-4.0));
#268=DIRECTION('',(0.0,0.0,-1.0));
#269=DIRECTION('',(0.0,1.0,0.0));
#270=ORIENTED_EDGE('',*,*,#414,.F.);
#271=ORIENTED_EDGE('',*,*,#410,.T.);
#272=ORIENTED_EDGE('',*,*,#415,.F.);
#273=ORIENTED_EDGE('',*,*,#412,.F.);
#274=CARTESIAN_POINT('',(-55.5,-3.46410161513775,-2.0));
#275=DIRECTION('',(0.0,-0.866025403784439,-0.5));
#276=DIRECTION('',(0.0,0.5,-0.866025403784439));
#277=ORIENTED_EDGE('',*,*,#416,.F.);
#278=ORIENTED_EDGE('',*,*,#381,.F.);
#279=ORIENTED_EDGE('',*,*,#409,.T.);
#280=ORIENTED_EDGE('',*,*,#406,.T.);
#281=ORIENTED_EDGE('',*,*,#403,.T.);
#282=ORIENTED_EDGE('',*,*,#400,.T.);
#283=ORIENTED_EDGE('',*,*,#413,.T.);
#284=ORIENTED_EDGE('',*,*,#415,.T.);
#285=CARTESIAN_POINT('',(-51.0,-2.85966536645874E-016,0.0));
#286=DIRECTION('',(1.0,0.0,0.0));
#287=DIRECTION('',(0.0,0.0,-1.0));
#288=ORIENTED_EDGE('',*,*,#417,.T.);
#289=ORIENTED_EDGE('',*,*,#395,.T.);
#290=ORIENTED_EDGE('',*,*,#376,.F.);
#291=ORIENTED_EDGE('',*,*,#418,.F.);
#292=CARTESIAN_POINT('',(-36.5,1.0,0.0));
#293=DIRECTION('',(-1.0,0.0,0.0));
#294=DIRECTION('',(0.0,0.0,1.0));
#295=ORIENTED_EDGE('',*,*,#394,.T.);
#296=ORIENTED_EDGE('',*,*,#419,.F.);
#297=ORIENTED_EDGE('',*,*,#396,.T.);
#298=ORIENTED_EDGE('',*,*,#417,.F.);
#299=CARTESIAN_POINT('',(-29.25,1.0,0.0));
#300=DIRECTION('',(1.0,0.0,0.0));
#301=DIRECTION('',(0.0,0.0,-1.0));
#302=ORIENTED_EDGE('',*,*,#390,.T.);
#303=ORIENTED_EDGE('',*,*,#420,.F.);
#304=ORIENTED_EDGE('',*,*,#392,.T.);
#305=ORIENTED_EDGE('',*,*,#421,.T.);
#306=CARTESIAN_POINT('',(-21.6,0.0,0.0));
#307=DIRECTION('',(1.0,0.0,0.0));
#308=DIRECTION('',(0.0,1.0,0.0));
#309=ORIENTED_EDGE('',*,*,#387,.F.);
#310=ORIENTED_EDGE('',*,*,#422,.F.);
#311=ORIENTED_EDGE('',*,*,#393,.T.);
#312=ORIENTED_EDGE('',*,*,#420,.T.);
#313=CARTESIAN_POINT('',(-21.2,14.7,0.0));
#314=DIRECTION('',(-1.0,-0.0,0.0));
#315=DIRECTION('',(0.0,-1.0,-0.0));
#316=ORIENTED_EDGE('',*,*,#386,.T.);
#317=ORIENTED_EDGE('',*,*,#423,.F.);
#318=ORIENTED_EDGE('',*,*,#388,.T.);
#319=ORIENTED_EDGE('',*,*,#422,.T.);
#320=CARTESIAN_POINT('',(-10.6,0.0,0.0));
#321=DIRECTION('',(1.0,0.0,0.0));
#322=DIRECTION('',(0.0,1.0,0.0));
#323=ORIENTED_EDGE('',*,*,#389,.T.);
#324=ORIENTED_EDGE('',*,*,#423,.T.);
#325=CARTESIAN_POINT('',(5.3576527979729E-016,8.75,0.0));
#326=DIRECTION('',(1.0,-6.12303176911189E-017,0.0));
#327=DIRECTION('',(6.12303176911189E-017,1.0,0.0));
#328=ORIENTED_EDGE('',*,*,#384,.T.);
#329=ORIENTED_EDGE('',*,*,#424,.F.);
#330=ORIENTED_EDGE('',*,*,#385,.T.);
#331=CARTESIAN_POINT('',(-46.654556200812,0.0,0.0));
#332=DIRECTION('',(-1.0,-0.0,-0.0));
#333=DIRECTION('',(0.0,1.0,0.0));
#334=ORIENTED_EDGE('',*,*,#380,.T.);
#335=ORIENTED_EDGE('',*,*,#424,.T.);
#336=ORIENTED_EDGE('',*,*,#382,.T.);
#337=ORIENTED_EDGE('',*,*,#416,.T.);
#338=CARTESIAN_POINT('',(-51.154556200812,0.0,0.0));
#339=DIRECTION('',(1.0,0.0,0.0));
#340=DIRECTION('',(0.0,1.0,0.0));
#341=ORIENTED_EDGE('',*,*,#408,.T.);
#342=ORIENTED_EDGE('',*,*,#414,.T.);
#343=ORIENTED_EDGE('',*,*,#411,.T.);
#344=ORIENTED_EDGE('',*,*,#398,.T.);
#345=ORIENTED_EDGE('',*,*,#402,.T.);
#346=ORIENTED_EDGE('',*,*,#405,.T.);
#347=ORIENTED_EDGE('',*,*,#378,.F.);
#348=ORIENTED_EDGE('',*,*,#425,.F.);
#349=CARTESIAN_POINT('',(-54.5,5.5938125,0.0));
#350=DIRECTION('',(-1.0,-0.0,0.0));
#351=DIRECTION('',(0.0,-1.0,-0.0));
#352=ORIENTED_EDGE('',*,*,#377,.T.);
#353=ORIENTED_EDGE('',*,*,#426,.F.);
#354=ORIENTED_EDGE('',*,*,#379,.T.);
#355=ORIENTED_EDGE('',*,*,#425,.T.);
#356=CARTESIAN_POINT('',(-54.0940625,0.0,0.0));
#357=DIRECTION('',(1.0,-0.0,-0.0));
#358=DIRECTION('',(0.0,1.0,0.0));
#359=ORIENTED_EDGE('',*,*,#373,.T.);
#360=ORIENTED_EDGE('',*,*,#418,.T.);
#361=ORIENTED_EDGE('',*,*,#375,.T.);
#362=ORIENTED_EDGE('',*,*,#426,.T.);
#363=CARTESIAN_POINT('',(-37.8440625,0.0,0.0));
#364=DIRECTION('',(1.0,0.0,0.0));
#365=DIRECTION('',(0.0,1.0,0.0));
#366=ORIENTED_EDGE('',*,*,#397,.T.);
#367=ORIENTED_EDGE('',*,*,#419,.T.);
#368=ORIENTED_EDGE('',*,*,#391,.F.);
#369=ORIENTED_EDGE('',*,*,#421,.F.);
#370=CARTESIAN_POINT('',(-22.0,9.95,0.0));
#371=DIRECTION('',(-1.0,-0.0,0.0));
#372=DIRECTION('',(0.0,-1.0,-0.0));
#373=EDGE_CURVE('',#427,#428,#429,.T.);
#374=EDGE_CURVE('',#427,#430,#431,.T.);
#375=EDGE_CURVE('',#432,#430,#433,.T.);
#376=EDGE_CURVE('',#432,#428,#434,.T.);
#377=EDGE_CURVE('',#435,#427,#436,.T.);
#378=EDGE_CURVE('',#435,#437,#438,.T.);
#379=EDGE_CURVE('',#430,#437,#439,.T.);
#380=EDGE_CURVE('',#440,#441,#442,.T.);
#381=EDGE_CURVE('',#440,#443,#444,.T.);
#382=EDGE_CURVE('',#445,#443,#446,.T.);
#383=EDGE_CURVE('',#445,#441,#447,.T.);
#384=EDGE_CURVE('',#448,#445,#449,.T.);
#385=EDGE_CURVE('',#441,#448,#450,.T.);
#386=EDGE_CURVE('',#451,#452,#453,.T.);
#387=EDGE_CURVE('',#451,#454,#455,.T.);
#388=EDGE_CURVE('',#456,#454,#457,.T.);
#389=EDGE_CURVE('',#452,#456,#458,.T.);
#390=EDGE_CURVE('',#459,#460,#461,.T.);
#391=EDGE_CURVE('',#459,#462,#463,.T.);
#392=EDGE_CURVE('',#464,#462,#465,.T.);
#393=EDGE_CURVE('',#460,#464,#466,.T.);
#394=EDGE_CURVE('',#467,#468,#469,.T.);
#395=EDGE_CURVE('',#470,#467,#471,.T.);
#396=EDGE_CURVE('',#472,#470,#473,.T.);
#397=EDGE_CURVE('',#468,#472,#474,.T.);
#398=EDGE_CURVE('',#475,#476,#477,.T.);
#399=EDGE_CURVE('',#475,#478,#479,.T.);
#400=EDGE_CURVE('',#480,#478,#481,.T.);
#401=EDGE_CURVE('',#476,#480,#482,.T.);
#402=EDGE_CURVE('',#476,#483,#484,.T.);
#403=EDGE_CURVE('',#485,#480,#486,.T.);
#404=EDGE_CURVE('',#483,#485,#487,.T.);
#405=EDGE_CURVE('',#483,#488,#489,.T.);
#406=EDGE_CURVE('',#490,#485,#491,.T.);
#407=EDGE_CURVE('',#488,#490,#492,.T.);
#408=EDGE_CURVE('',#488,#493,#494,.T.);
#409=EDGE_CURVE('',#495,#490,#496,.T.);
#410=EDGE_CURVE('',#493,#495,#497,.T.);
#411=EDGE_CURVE('',#498,#475,#499,.T.);
#412=EDGE_CURVE('',#498,#500,#501,.T.);
#413=EDGE_CURVE('',#478,#500,#502,.T.);
#414=EDGE_CURVE('',#493,#498,#503,.T.);
#415=EDGE_CURVE('',#500,#495,#504,.T.);
#416=EDGE_CURVE('',#443,#440,#505,.T.);
#417=EDGE_CURVE('',#467,#470,#506,.T.);
#418=EDGE_CURVE('',#428,#432,#507,.T.);
#419=EDGE_CURVE('',#472,#468,#508,.T.);
#420=EDGE_CURVE('',#464,#460,#509,.T.);
#421=EDGE_CURVE('',#462,#459,#510,.T.);
#422=EDGE_CURVE('',#454,#451,#511,.T.);
#423=EDGE_CURVE('',#456,#452,#512,.T.);
#424=EDGE_CURVE('',#441,#445,#513,.T.);
#425=EDGE_CURVE('',#437,#435,#514,.T.);
#426=EDGE_CURVE('',#430,#427,#515,.T.);
#427=VERTEX_POINT('',#516);
#428=VERTEX_POINT('',#517);
#429=LINE('',#518,#519);
#430=VERTEX_POINT('',#520);
#431=CIRCLE('',#521,8.0);
#432=VERTEX_POINT('',#522);
#433=LINE('',#523,#524);
#434=CIRCLE('',#525,8.0);
#435=VERTEX_POINT('',#526);
#436=LINE('',#527,#528);
#437=VERTEX_POINT('',#529);
#438=CIRCLE('',#530,7.188125);
#439=LINE('',#531,#532);
#440=VERTEX_POINT('',#533);
#441=VERTEX_POINT('',#534);
#442=LINE('',#535,#536);
#443=VERTEX_POINT('',#537);
#444=CIRCLE('',#538,3.9995);
#445=VERTEX_POINT('',#539);
#446=LINE('',#540,#541);
#447=CIRCLE('',#542,3.9995);
#448=VERTEX_POINT('',#543);
#449=LINE('',#544,#545);
#450=LINE('',#546,#547);
#451=VERTEX_POINT('',#548);
#452=VERTEX_POINT('',#549);
#453=LINE('',#550,#551);
#454=VERTEX_POINT('',#552);
#455=CIRCLE('',#553,17.5);
#456=VERTEX_POINT('',#554);
#457=LINE('',#555,#556);
#458=CIRCLE('',#557,17.5);
#459=VERTEX_POINT('',#558);
#460=VERTEX_POINT('',#559);
#461=LINE('',#560,#561);
#462=VERTEX_POINT('',#562);
#463=CIRCLE('',#563,11.9);
#464=VERTEX_POINT('',#564);
#465=LINE('',#565,#566);
#466=CIRCLE('',#567,11.9);
#467=VERTEX_POINT('',#568);
#468=VERTEX_POINT('',#569);
#469=LINE('',#570,#571);
#470=VERTEX_POINT('',#572);
#471=CIRCLE('',#573,10.0);
#472=VERTEX_POINT('',#574);
#473=LINE('',#575,#576);
#474=CIRCLE('',#577,10.0);
#475=VERTEX_POINT('',#578);
#476=VERTEX_POINT('',#579);
#477=LINE('',#580,#581);
#478=VERTEX_POINT('',#582);
#479=LINE('',#583,#584);
#480=VERTEX_POINT('',#585);
#481=LINE('',#586,#587);
#482=LINE('',#588,#589);
#483=VERTEX_POINT('',#590);
#484=LINE('',#591,#592);
#485=VERTEX_POINT('',#593);
#486=LINE('',#594,#595);
#487=LINE('',#596,#597);
#488=VERTEX_POINT('',#598);
#489=LINE('',#599,#600);
#490=VERTEX_POINT('',#601);
#491=LINE('',#602,#603);
#492=LINE('',#604,#605);
#493=VERTEX_POINT('',#606);
#494=LINE('',#607,#608);
#495=VERTEX_POINT('',#609);
#496=LINE('',#610,#611);
#497=LINE('',#612,#613);
#498=VERTEX_POINT('',#614);
#499=LINE('',#615,#616);
#500=VERTEX_POINT('',#617);
#501=LINE('',#618,#619);
#502=LINE('',#620,#621);
#503=LINE('',#622,#623);
#504=LINE('',#624,#625);
#505=CIRCLE('',#626,3.9995);
#506=CIRCLE('',#627,10.0);
#507=CIRCLE('',#628,8.0);
#508=CIRCLE('',#629,10.0);
#509=CIRCLE('',#630,11.9);
#510=CIRCLE('',#631,11.9);
#511=CIRCLE('',#632,17.5);
#512=CIRCLE('',#633,17.5);
#513=CIRCLE('',#634,3.9995);
#514=CIRCLE('',#635,7.188125);
#515=CIRCLE('',#636,8.0);
#516=CARTESIAN_POINT('',(-53.688125,8.0,0.0));
#517=CARTESIAN_POINT('',(-36.5,8.0,-9.79685083057902E-016));
#518=CARTESIAN_POINT('',(-37.8440625,8.0,-9.79685083057902E-016));
#519=VECTOR('',#637,1.0);
#520=CARTESIAN_POINT('',(-53.688125,-8.0,9.79685083057902E-016));
#521=AXIS2_PLACEMENT_3D('',#638,#639,#640);
#522=CARTESIAN_POINT('',(-36.5,-8.0,9.79685083057902E-016));
#523=CARTESIAN_POINT('',(-37.8440625,-8.0,9.79685083057902E-016));
#524=VECTOR('',#641,1.0);
#525=AXIS2_PLACEMENT_3D('',#642,#643,#644);
#526=CARTESIAN_POINT('',(-54.5,7.188125,0.0));
#527=CARTESIAN_POINT('',(-54.0940625,7.5940625,-9.29973718882425E-016));
#528=VECTOR('',#645,1.0);
#529=CARTESIAN_POINT('',(-54.5,-7.188125,8.80262354706948E-016));
#530=AXIS2_PLACEMENT_3D('',#646,#647,#648);
#531=CARTESIAN_POINT('',(-54.0940625,-7.5940625,9.29973718882425E-016));
#532=VECTOR('',#649,1.0);
#533=CARTESIAN_POINT('',(-51.0,3.9995,-4.8978131121126E-016));
#534=CARTESIAN_POINT('',(-47.8091124016239,3.9995,0.0));
#535=CARTESIAN_POINT('',(-49.404556200812,3.9995,-4.8978131121126E-016));
#536=VECTOR('',#650,1.0);
#537=CARTESIAN_POINT('',(-51.0,-3.9995,4.8978131121126E-016));
#538=AXIS2_PLACEMENT_3D('',#651,#652,#653);
#539=CARTESIAN_POINT('',(-47.8091124016239,-3.9995,4.8978131121126E-016));
#540=CARTESIAN_POINT('',(-49.404556200812,-3.9995,4.8978131121126E-016));
#541=VECTOR('',#654,1.0);
#542=AXIS2_PLACEMENT_3D('',#655,#656,#657);
#543=CARTESIAN_POINT('',(-45.5,0.0,0.0));
#544=CARTESIAN_POINT('',(-46.654556200812,-1.99975,2.4489065560563E-016));
#545=VECTOR('',#658,1.0);
#546=CARTESIAN_POINT('',(-46.654556200812,1.99975,-2.4489065560563E-016));
#547=VECTOR('',#659,1.0);
#548=CARTESIAN_POINT('',(-21.2,17.5,0.0));
#549=CARTESIAN_POINT('',(1.07153055959458E-015,17.5,0.0));
#550=CARTESIAN_POINT('',(-10.6,17.5,-2.14306111918916E-015));
#551=VECTOR('',#660,1.0);
#552=CARTESIAN_POINT('',(-21.2,-17.5,2.14306111918916E-015));
#553=AXIS2_PLACEMENT_3D('',#661,#662,#663);
#554=CARTESIAN_POINT('',(0.0,-17.5,2.14306111918916E-015));
#555=CARTESIAN_POINT('',(-10.6,-17.5,2.14306111918916E-015));
#556=VECTOR('',#664,1.0);
#557=AXIS2_PLACEMENT_3D('',#665,#666,#667);
#558=CARTESIAN_POINT('',(-22.0,11.9,0.0));
#559=CARTESIAN_POINT('',(-21.2,11.9,0.0));
#560=CARTESIAN_POINT('',(-21.6,11.9,-1.45728156104863E-015));
#561=VECTOR('',#668,1.0);
#562=CARTESIAN_POINT('',(-22.0,-11.9,1.45728156104863E-015));
#563=AXIS2_PLACEMENT_3D('',#669,#670,#671);
#564=CARTESIAN_POINT('',(-21.2,-11.9,1.45728156104863E-015));
#565=CARTESIAN_POINT('',(-21.6,-11.9,1.45728156104863E-015));
#566=VECTOR('',#672,1.0);
#567=AXIS2_PLACEMENT_3D('',#673,#674,#675);
#568=CARTESIAN_POINT('',(-36.5,1.0,-10.0));
#569=CARTESIAN_POINT('',(-22.0,1.0,-10.0));
#570=CARTESIAN_POINT('',(-29.25,0.999999999999999,-10.0));
#571=VECTOR('',#676,1.0);
#572=CARTESIAN_POINT('',(-36.5,1.0,10.0));
#573=AXIS2_PLACEMENT_3D('',#677,#678,#679);
#574=CARTESIAN_POINT('',(-22.0,1.0,10.0));
#575=CARTESIAN_POINT('',(-29.25,1.0,10.0));
#576=VECTOR('',#680,1.0);
#577=AXIS2_PLACEMENT_3D('',#681,#682,#683);
#578=CARTESIAN_POINT('',(-54.5,2.3094010767585,-4.0));
#579=CARTESIAN_POINT('',(-54.5,4.61880215351701,-8.48441510084516E-016));
#580=CARTESIAN_POINT('',(-54.5,4.16332817763775,-0.788904067748265));
#581=VECTOR('',#684,1.0);
#582=CARTESIAN_POINT('',(-51.0,2.3094010767585,-4.0));
#583=CARTESIAN_POINT('',(-55.5,2.3094010767585,-4.0));
#584=VECTOR('',#685,1.0);
#585=CARTESIAN_POINT('',(-51.0,4.61880215351701,-8.48441510084516E-016));
#586=CARTESIAN_POINT('',(-51.0,2.3094010767585,-4.0));
#587=VECTOR('',#686,1.0);
#588=CARTESIAN_POINT('',(-55.5,4.61880215351701,-8.48441510084516E-016));
#589=VECTOR('',#687,1.0);
#590=CARTESIAN_POINT('',(-54.5,2.30940107675851,4.0));
#591=CARTESIAN_POINT('',(-54.5,4.16332817763775,0.788904067748264));
#592=VECTOR('',#688,1.0);
#593=CARTESIAN_POINT('',(-51.0,2.30940107675851,4.0));
#594=CARTESIAN_POINT('',(-51.0,4.61880215351701,-8.48441510084516E-016));
#595=VECTOR('',#689,1.0);
#596=CARTESIAN_POINT('',(-55.5,2.30940107675851,4.0));
#597=VECTOR('',#690,1.0);
#598=CARTESIAN_POINT('',(-54.5,-2.3094010767585,4.0));
#599=CARTESIAN_POINT('',(-54.5,2.79690625,4.0));
#600=VECTOR('',#691,1.0);
#601=CARTESIAN_POINT('',(-51.0,-2.3094010767585,4.0));
#602=CARTESIAN_POINT('',(-51.0,2.30940107675851,4.0));
#603=VECTOR('',#692,1.0);
#604=CARTESIAN_POINT('',(-55.5,-2.3094010767585,4.0));
#605=VECTOR('',#693,1.0);
#606=CARTESIAN_POINT('',(-54.5,-4.61880215351701,2.82820063659975E-016));
#607=CARTESIAN_POINT('',(-54.5,-2.76487505263775,3.21109593225174));
#608=VECTOR('',#694,1.0);
#609=CARTESIAN_POINT('',(-51.0,-4.61880215351701,2.82820063659975E-016));
#610=CARTESIAN_POINT('',(-51.0,-2.3094010767585,4.0));
#611=VECTOR('',#695,1.0);
#612=CARTESIAN_POINT('',(-55.5,-4.61880215351701,2.82820063659975E-016));
#613=VECTOR('',#696,1.0);
#614=CARTESIAN_POINT('',(-54.5,-2.3094010767585,-4.0));
#615=CARTESIAN_POINT('',(-54.5,2.79690625,-4.0));
#616=VECTOR('',#697,1.0);
#617=CARTESIAN_POINT('',(-51.0,-2.3094010767585,-4.0));
#618=CARTESIAN_POINT('',(-55.5,-2.3094010767585,-4.0));
#619=VECTOR('',#698,1.0);
#620=CARTESIAN_POINT('',(-51.0,-2.3094010767585,-4.0));
#621=VECTOR('',#699,1.0);
#622=CARTESIAN_POINT('',(-54.5,-2.76487505263776,-3.21109593225173));
#623=VECTOR('',#700,1.0);
#624=CARTESIAN_POINT('',(-51.0,-4.61880215351701,2.82820063659975E-016));
#625=VECTOR('',#701,1.0);
#626=AXIS2_PLACEMENT_3D('',#702,#703,#704);
#627=AXIS2_PLACEMENT_3D('',#705,#706,#707);
#628=AXIS2_PLACEMENT_3D('',#708,#709,#710);
#629=AXIS2_PLACEMENT_3D('',#711,#712,#713);
#630=AXIS2_PLACEMENT_3D('',#714,#715,#716);
#631=AXIS2_PLACEMENT_3D('',#717,#718,#719);
#632=AXIS2_PLACEMENT_3D('',#720,#721,#722);
#633=AXIS2_PLACEMENT_3D('',#723,#724,#725);
#634=AXIS2_PLACEMENT_3D('',#726,#727,#728);
#635=AXIS2_PLACEMENT_3D('',#729,#730,#731);
#636=AXIS2_PLACEMENT_3D('',#732,#733,#734);
#637=DIRECTION('',(1.0,0.0,0.0));
#638=CARTESIAN_POINT('',(-53.688125,0.0,0.0));
#639=DIRECTION('',(1.0,0.0,0.0));
#640=DIRECTION('',(0.0,1.0,0.0));
#641=DIRECTION('',(-1.0,-0.0,-0.0));
#642=CARTESIAN_POINT('',(-36.5,0.0,0.0));
#643=DIRECTION('',(-1.0,0.0,0.0));
#644=DIRECTION('',(0.0,1.0,0.0));
#645=DIRECTION('',(0.707106781186557,0.707106781186538,-8.65927457071924E-017));
#646=CARTESIAN_POINT('',(-54.5,0.0,0.0));
#647=DIRECTION('',(1.0,0.0,0.0));
#648=DIRECTION('',(0.0,1.0,0.0));
#649=DIRECTION('',(-0.707106781186557,0.707106781186538,-8.65927457071924E-017));
#650=DIRECTION('',(1.0,-0.0,0.0));
#651=CARTESIAN_POINT('',(-51.0,0.0,0.0));
#652=DIRECTION('',(-1.0,0.0,0.0));
#653=DIRECTION('',(0.0,1.0,0.0));
#654=DIRECTION('',(-1.0,-0.0,0.0));
#655=CARTESIAN_POINT('',(-47.8091124016239,0.0,0.0));
#656=DIRECTION('',(1.0,0.0,0.0));
#657=DIRECTION('',(0.0,1.0,0.0));
#658=DIRECTION('',(-0.5,-0.866025403784439,1.06054021204601E-016));
#659=DIRECTION('',(0.5,-0.866025403784439,1.06054021204601E-016));
#660=DIRECTION('',(1.0,0.0,0.0));
#661=CARTESIAN_POINT('',(-21.2,0.0,0.0));
#662=DIRECTION('',(1.0,0.0,0.0));
#663=DIRECTION('',(0.0,1.0,0.0));
#664=DIRECTION('',(-1.0,-0.0,-0.0));
#665=CARTESIAN_POINT('',(0.0,0.0,0.0));
#666=DIRECTION('',(1.0,0.0,0.0));
#667=DIRECTION('',(0.0,1.0,0.0));
#668=DIRECTION('',(1.0,0.0,0.0));
#669=CARTESIAN_POINT('',(-22.0,0.0,0.0));
#670=DIRECTION('',(1.0,0.0,0.0));
#671=DIRECTION('',(0.0,1.0,0.0));
#672=DIRECTION('',(-1.0,-0.0,-0.0));
#673=CARTESIAN_POINT('',(-21.2,0.0,0.0));
#674=DIRECTION('',(1.0,0.0,0.0));
#675=DIRECTION('',(0.0,1.0,0.0));
#676=DIRECTION('',(1.0,0.0,0.0));
#677=CARTESIAN_POINT('',(-36.5,1.0,0.0));
#678=DIRECTION('',(-1.0,0.0,0.0));
#679=DIRECTION('',(0.0,0.0,-1.0));
#680=DIRECTION('',(-1.0,-0.0,-0.0));
#681=CARTESIAN_POINT('',(-22.0,1.0,0.0));
#682=DIRECTION('',(1.0,-0.0,0.0));
#683=DIRECTION('',(0.0,0.0,-1.0));
#684=DIRECTION('',(0.0,0.5,0.866025403784438));
#685=DIRECTION('',(1.0,0.0,0.0));
#686=DIRECTION('',(-0.0,-0.5,-0.866025403784438));
#687=DIRECTION('',(1.0,0.0,0.0));
#688=DIRECTION('',(0.0,-0.5,0.866025403784439));
#689=DIRECTION('',(0.0,0.5,-0.866025403784439));
#690=DIRECTION('',(1.0,0.0,0.0));
#691=DIRECTION('',(0.0,-1.0,1.92296268638356E-016));
#692=DIRECTION('',(0.0,1.0,-1.92296268638356E-016));
#693=DIRECTION('',(1.0,0.0,0.0));
#694=DIRECTION('',(-0.0,-0.5,-0.866025403784439));
#695=DIRECTION('',(0.0,0.5,0.866025403784439));
#696=DIRECTION('',(1.0,0.0,0.0));
#697=DIRECTION('',(0.0,1.0,0.0));
#698=DIRECTION('',(1.0,0.0,0.0));
#699=DIRECTION('',(-0.0,-1.0,-0.0));
#700=DIRECTION('',(0.0,0.5,-0.866025403784439));
#701=DIRECTION('',(0.0,-0.5,0.866025403784439));
#702=CARTESIAN_POINT('',(-51.0,0.0,0.0));
#703=DIRECTION('',(-1.0,0.0,0.0));
#704=DIRECTION('',(0.0,1.0,0.0));
#705=CARTESIAN_POINT('',(-36.5,1.0,0.0));
#706=DIRECTION('',(-1.0,0.0,0.0));
#707=DIRECTION('',(0.0,0.0,-1.0));
#708=CARTESIAN_POINT('',(-36.5,0.0,0.0));
#709=DIRECTION('',(-1.0,0.0,0.0));
#710=DIRECTION('',(0.0,1.0,0.0));
#711=CARTESIAN_POINT('',(-22.0,1.0,0.0));
#712=DIRECTION('',(1.0,-0.0,0.0));
#713=DIRECTION('',(0.0,0.0,-1.0));
#714=CARTESIAN_POINT('',(-21.2,0.0,0.0));
#715=DIRECTION('',(1.0,0.0,0.0));
#716=DIRECTION('',(0.0,1.0,0.0));
#717=CARTESIAN_POINT('',(-22.0,0.0,0.0));
#718=DIRECTION('',(1.0,0.0,0.0));
#719=DIRECTION('',(0.0,1.0,0.0));
#720=CARTESIAN_POINT('',(-21.2,0.0,0.0));
#721=DIRECTION('',(1.0,0.0,0.0));
#722=DIRECTION('',(0.0,1.0,0.0));
#723=CARTESIAN_POINT('',(0.0,0.0,0.0));
#724=DIRECTION('',(1.0,0.0,0.0));
#725=DIRECTION('',(0.0,1.0,0.0));
#726=CARTESIAN_POINT('',(-47.8091124016239,0.0,0.0));
#727=DIRECTION('',(1.0,0.0,0.0));
#728=DIRECTION('',(0.0,1.0,0.0));
#729=CARTESIAN_POINT('',(-54.5,0.0,0.0));
#730=DIRECTION('',(1.0,0.0,0.0));
#731=DIRECTION('',(0.0,1.0,0.0));
#732=CARTESIAN_POINT('',(-53.688125,0.0,0.0));
#733=DIRECTION('',(1.0,0.0,0.0));
#734=DIRECTION('',(0.0,1.0,0.0));
ENDSEC;
END-ISO-10303-21;
